ISO-10303-21;
HEADER;
FILE_DESCRIPTION(('FreeCAD Model'),'2;1');
FILE_NAME('Open CASCADE Shape Model','2025-05-08T00:20:41',(''),(''),
  'Open CASCADE STEP processor 7.6','FreeCAD','Unknown');
FILE_SCHEMA(('AUTOMOTIVE_DESIGN { 1 0 10303 214 1 1 1 1 }'));
ENDSEC;
DATA;
#1 = APPLICATION_PROTOCOL_DEFINITION('international standard',
  'automotive_design',2000,#2);
#2 = APPLICATION_CONTEXT(
  'core data for automotive mechanical design processes');
#3 = SHAPE_DEFINITION_REPRESENTATION(#4,#10);
#4 = PRODUCT_DEFINITION_SHAPE('','',#5);
#5 = PRODUCT_DEFINITION('design','',#6,#9);
#6 = PRODUCT_DEFINITION_FORMATION('','',#7);
#7 = PRODUCT('BMSBracketTopBody','BMSBracketTopBody','',(#8));
#8 = PRODUCT_CONTEXT('',#2,'mechanical');
#9 = PRODUCT_DEFINITION_CONTEXT('part definition',#2,'design');
#10 = ADVANCED_BREP_SHAPE_REPRESENTATION('',(#11,#15),#665);
#11 = AXIS2_PLACEMENT_3D('',#12,#13,#14);
#12 = CARTESIAN_POINT('',(0.,0.,0.));
#13 = DIRECTION('',(0.,0.,1.));
#14 = DIRECTION('',(1.,0.,-0.));
#15 = MANIFOLD_SOLID_BREP('',#16);
#16 = CLOSED_SHELL('',(#17,#89,#142,#175,#208,#250,#292,#316,#340,#357,
    #382,#407,#433,#458,#483,#508,#525,#550,#567,#592,#617,#629,#641,
    #653));
#17 = ADVANCED_FACE('',(#18),#84,.F.);
#18 = FACE_BOUND('',#19,.F.);
#19 = EDGE_LOOP('',(#20,#30,#38,#46,#54,#62,#70,#78));
#20 = ORIENTED_EDGE('',*,*,#21,.F.);
#21 = EDGE_CURVE('',#22,#24,#26,.T.);
#22 = VERTEX_POINT('',#23);
#23 = CARTESIAN_POINT('',(-5.,32.75,-41.15));
#24 = VERTEX_POINT('',#25);
#25 = CARTESIAN_POINT('',(-5.,-32.75,-41.15));
#26 = LINE('',#27,#28);
#27 = CARTESIAN_POINT('',(-5.,33.25,-41.15));
#28 = VECTOR('',#29,1.);
#29 = DIRECTION('',(0.,-1.,2.2E-16));
#30 = ORIENTED_EDGE('',*,*,#31,.F.);
#31 = EDGE_CURVE('',#32,#22,#34,.T.);
#32 = VERTEX_POINT('',#33);
#33 = CARTESIAN_POINT('',(-5.,32.75,-21.15));
#34 = LINE('',#35,#36);
#35 = CARTESIAN_POINT('',(-5.,32.75,-21.15));
#36 = VECTOR('',#37,1.);
#37 = DIRECTION('',(0.,-2.2E-16,-1.));
#38 = ORIENTED_EDGE('',*,*,#39,.T.);
#39 = EDGE_CURVE('',#32,#40,#42,.T.);
#40 = VERTEX_POINT('',#41);
#41 = CARTESIAN_POINT('',(-5.,24.5,-21.15));
#42 = LINE('',#43,#44);
#43 = CARTESIAN_POINT('',(-5.,33.25,-21.15));
#44 = VECTOR('',#45,1.);
#45 = DIRECTION('',(0.,-1.,2.2E-16));
#46 = ORIENTED_EDGE('',*,*,#47,.F.);
#47 = EDGE_CURVE('',#48,#40,#50,.T.);
#48 = VERTEX_POINT('',#49);
#49 = CARTESIAN_POINT('',(-5.,24.5,-36.15));
#50 = LINE('',#51,#52);
#51 = CARTESIAN_POINT('',(-5.,24.5,-28.65));
#52 = VECTOR('',#53,1.);
#53 = DIRECTION('',(0.,0.,1.));
#54 = ORIENTED_EDGE('',*,*,#55,.F.);
#55 = EDGE_CURVE('',#56,#48,#58,.T.);
#56 = VERTEX_POINT('',#57);
#57 = CARTESIAN_POINT('',(-5.,-24.5,-36.15));
#58 = LINE('',#59,#60);
#59 = CARTESIAN_POINT('',(-5.,4.375,-36.15));
#60 = VECTOR('',#61,1.);
#61 = DIRECTION('',(0.,1.,0.));
#62 = ORIENTED_EDGE('',*,*,#63,.F.);
#63 = EDGE_CURVE('',#64,#56,#66,.T.);
#64 = VERTEX_POINT('',#65);
#65 = CARTESIAN_POINT('',(-5.,-24.5,-21.15));
#66 = LINE('',#67,#68);
#67 = CARTESIAN_POINT('',(-5.,-24.5,-21.15));
#68 = VECTOR('',#69,1.);
#69 = DIRECTION('',(0.,0.,-1.));
#70 = ORIENTED_EDGE('',*,*,#71,.T.);
#71 = EDGE_CURVE('',#64,#72,#74,.T.);
#72 = VERTEX_POINT('',#73);
#73 = CARTESIAN_POINT('',(-5.,-32.75,-21.15));
#74 = LINE('',#75,#76);
#75 = CARTESIAN_POINT('',(-5.,33.25,-21.15));
#76 = VECTOR('',#77,1.);
#77 = DIRECTION('',(0.,-1.,2.2E-16));
#78 = ORIENTED_EDGE('',*,*,#79,.T.);
#79 = EDGE_CURVE('',#72,#24,#80,.T.);
#80 = LINE('',#81,#82);
#81 = CARTESIAN_POINT('',(-5.,-32.75,-21.15));
#82 = VECTOR('',#83,1.);
#83 = DIRECTION('',(0.,-2.2E-16,-1.));
#84 = PLANE('',#85);
#85 = AXIS2_PLACEMENT_3D('',#86,#87,#88);
#86 = CARTESIAN_POINT('',(-5.,33.25,-21.15));
#87 = DIRECTION('',(1.,0.,0.));
#88 = DIRECTION('',(0.,-2.2E-16,-1.));
#89 = ADVANCED_FACE('',(#90,#115,#126),#137,.F.);
#90 = FACE_BOUND('',#91,.F.);
#91 = EDGE_LOOP('',(#92,#93,#101,#109));
#92 = ORIENTED_EDGE('',*,*,#21,.T.);
#93 = ORIENTED_EDGE('',*,*,#94,.T.);
#94 = EDGE_CURVE('',#24,#95,#97,.T.);
#95 = VERTEX_POINT('',#96);
#96 = CARTESIAN_POINT('',(5.,-32.75,-41.15));
#97 = LINE('',#98,#99);
#98 = CARTESIAN_POINT('',(-5.,-32.75,-41.15));
#99 = VECTOR('',#100,1.);
#100 = DIRECTION('',(1.,0.,0.));
#101 = ORIENTED_EDGE('',*,*,#102,.F.);
#102 = EDGE_CURVE('',#103,#95,#105,.T.);
#103 = VERTEX_POINT('',#104);
#104 = CARTESIAN_POINT('',(5.,32.75,-41.15));
#105 = LINE('',#106,#107);
#106 = CARTESIAN_POINT('',(5.,33.25,-41.15));
#107 = VECTOR('',#108,1.);
#108 = DIRECTION('',(0.,-1.,2.2E-16));
#109 = ORIENTED_EDGE('',*,*,#110,.F.);
#110 = EDGE_CURVE('',#22,#103,#111,.T.);
#111 = LINE('',#112,#113);
#112 = CARTESIAN_POINT('',(-5.,32.75,-41.15));
#113 = VECTOR('',#114,1.);
#114 = DIRECTION('',(1.,0.,0.));
#115 = FACE_BOUND('',#116,.F.);
#116 = EDGE_LOOP('',(#117));
#117 = ORIENTED_EDGE('',*,*,#118,.T.);
#118 = EDGE_CURVE('',#119,#119,#121,.T.);
#119 = VERTEX_POINT('',#120);
#120 = CARTESIAN_POINT('',(-3.5,-29.25,-41.15));
#121 = CIRCLE('',#122,3.5);
#122 = AXIS2_PLACEMENT_3D('',#123,#124,#125);
#123 = CARTESIAN_POINT('',(0.,-29.25,-41.15));
#124 = DIRECTION('',(0.,0.,-1.));
#125 = DIRECTION('',(-1.,0.,0.));
#126 = FACE_BOUND('',#127,.F.);
#127 = EDGE_LOOP('',(#128));
#128 = ORIENTED_EDGE('',*,*,#129,.T.);
#129 = EDGE_CURVE('',#130,#130,#132,.T.);
#130 = VERTEX_POINT('',#131);
#131 = CARTESIAN_POINT('',(-3.5,29.25,-41.15));
#132 = CIRCLE('',#133,3.5);
#133 = AXIS2_PLACEMENT_3D('',#134,#135,#136);
#134 = CARTESIAN_POINT('',(0.,29.25,-41.15));
#135 = DIRECTION('',(0.,0.,-1.));
#136 = DIRECTION('',(-1.,0.,0.));
#137 = PLANE('',#138);
#138 = AXIS2_PLACEMENT_3D('',#139,#140,#141);
#139 = CARTESIAN_POINT('',(-5.,33.25,-41.15));
#140 = DIRECTION('',(0.,2.2E-16,1.));
#141 = DIRECTION('',(1.,0.,0.));
#142 = ADVANCED_FACE('',(#143),#170,.T.);
#143 = FACE_BOUND('',#144,.T.);
#144 = EDGE_LOOP('',(#145,#154,#162,#169));
#145 = ORIENTED_EDGE('',*,*,#146,.T.);
#146 = EDGE_CURVE('',#32,#147,#149,.T.);
#147 = VERTEX_POINT('',#148);
#148 = CARTESIAN_POINT('',(-4.5,33.25,-21.65));
#149 = ELLIPSE('',#150,0.707106781187,0.5);
#150 = AXIS2_PLACEMENT_3D('',#151,#152,#153);
#151 = CARTESIAN_POINT('',(-4.5,32.75,-21.65));
#152 = DIRECTION('',(-0.707106781187,-1.6E-16,-0.707106781187));
#153 = DIRECTION('',(0.707106781187,-1.6E-16,-0.707106781187));
#154 = ORIENTED_EDGE('',*,*,#155,.T.);
#155 = EDGE_CURVE('',#147,#156,#158,.T.);
#156 = VERTEX_POINT('',#157);
#157 = CARTESIAN_POINT('',(-4.5,33.25,-40.65));
#158 = LINE('',#159,#160);
#159 = CARTESIAN_POINT('',(-4.5,33.25,-21.15));
#160 = VECTOR('',#161,1.);
#161 = DIRECTION('',(0.,-2.2E-16,-1.));
#162 = ORIENTED_EDGE('',*,*,#163,.F.);
#163 = EDGE_CURVE('',#22,#156,#164,.T.);
#164 = ELLIPSE('',#165,0.707106781187,0.5);
#165 = AXIS2_PLACEMENT_3D('',#166,#167,#168);
#166 = CARTESIAN_POINT('',(-4.5,32.75,-40.65));
#167 = DIRECTION('',(0.707106781187,-1.6E-16,-0.707106781187));
#168 = DIRECTION('',(-0.707106781187,-1.6E-16,-0.707106781187));
#169 = ORIENTED_EDGE('',*,*,#31,.F.);
#170 = CYLINDRICAL_SURFACE('',#171,0.5);
#171 = AXIS2_PLACEMENT_3D('',#172,#173,#174);
#172 = CARTESIAN_POINT('',(-4.5,32.75,-21.15));
#173 = DIRECTION('',(0.,-2.2E-16,-1.));
#174 = DIRECTION('',(-1.,0.,-0.));
#175 = ADVANCED_FACE('',(#176),#203,.T.);
#176 = FACE_BOUND('',#177,.F.);
#177 = EDGE_LOOP('',(#178,#187,#195,#202));
#178 = ORIENTED_EDGE('',*,*,#179,.T.);
#179 = EDGE_CURVE('',#72,#180,#182,.T.);
#180 = VERTEX_POINT('',#181);
#181 = CARTESIAN_POINT('',(-4.5,-33.25,-21.65));
#182 = ELLIPSE('',#183,0.707106781187,0.5);
#183 = AXIS2_PLACEMENT_3D('',#184,#185,#186);
#184 = CARTESIAN_POINT('',(-4.5,-32.75,-21.65));
#185 = DIRECTION('',(0.707106781187,1.6E-16,0.707106781187));
#186 = DIRECTION('',(0.707106781187,-1.6E-16,-0.707106781187));
#187 = ORIENTED_EDGE('',*,*,#188,.T.);
#188 = EDGE_CURVE('',#180,#189,#191,.T.);
#189 = VERTEX_POINT('',#190);
#190 = CARTESIAN_POINT('',(-4.5,-33.25,-40.65));
#191 = LINE('',#192,#193);
#192 = CARTESIAN_POINT('',(-4.5,-33.25,-21.15));
#193 = VECTOR('',#194,1.);
#194 = DIRECTION('',(0.,-2.2E-16,-1.));
#195 = ORIENTED_EDGE('',*,*,#196,.F.);
#196 = EDGE_CURVE('',#24,#189,#197,.T.);
#197 = ELLIPSE('',#198,0.707106781187,0.5);
#198 = AXIS2_PLACEMENT_3D('',#199,#200,#201);
#199 = CARTESIAN_POINT('',(-4.5,-32.75,-40.65));
#200 = DIRECTION('',(-0.707106781187,1.6E-16,0.707106781187));
#201 = DIRECTION('',(-0.707106781187,-1.6E-16,-0.707106781187));
#202 = ORIENTED_EDGE('',*,*,#79,.F.);
#203 = CYLINDRICAL_SURFACE('',#204,0.5);
#204 = AXIS2_PLACEMENT_3D('',#205,#206,#207);
#205 = CARTESIAN_POINT('',(-4.5,-32.75,-21.15));
#206 = DIRECTION('',(0.,-2.2E-16,-1.));
#207 = DIRECTION('',(-1.,0.,-0.));
#208 = ADVANCED_FACE('',(#209,#234),#245,.F.);
#209 = FACE_BOUND('',#210,.F.);
#210 = EDGE_LOOP('',(#211,#221,#227,#228));
#211 = ORIENTED_EDGE('',*,*,#212,.T.);
#212 = EDGE_CURVE('',#213,#215,#217,.T.);
#213 = VERTEX_POINT('',#214);
#214 = CARTESIAN_POINT('',(5.,32.75,-21.15));
#215 = VERTEX_POINT('',#216);
#216 = CARTESIAN_POINT('',(5.,24.5,-21.15));
#217 = LINE('',#218,#219);
#218 = CARTESIAN_POINT('',(5.,33.25,-21.15));
#219 = VECTOR('',#220,1.);
#220 = DIRECTION('',(0.,-1.,2.2E-16));
#221 = ORIENTED_EDGE('',*,*,#222,.T.);
#222 = EDGE_CURVE('',#215,#40,#223,.T.);
#223 = LINE('',#224,#225);
#224 = CARTESIAN_POINT('',(70.860336049161,24.5,-21.15));
#225 = VECTOR('',#226,1.);
#226 = DIRECTION('',(-1.,0.,0.));
#227 = ORIENTED_EDGE('',*,*,#39,.F.);
#228 = ORIENTED_EDGE('',*,*,#229,.F.);
#229 = EDGE_CURVE('',#213,#32,#230,.T.);
#230 = LINE('',#231,#232);
#231 = CARTESIAN_POINT('',(5.,32.75,-21.15));
#232 = VECTOR('',#233,1.);
#233 = DIRECTION('',(-1.,-0.,0.));
#234 = FACE_BOUND('',#235,.F.);
#235 = EDGE_LOOP('',(#236));
#236 = ORIENTED_EDGE('',*,*,#237,.F.);
#237 = EDGE_CURVE('',#238,#238,#240,.T.);
#238 = VERTEX_POINT('',#239);
#239 = CARTESIAN_POINT('',(1.75,29.25,-21.15));
#240 = CIRCLE('',#241,1.75);
#241 = AXIS2_PLACEMENT_3D('',#242,#243,#244);
#242 = CARTESIAN_POINT('',(0.,29.25,-21.15));
#243 = DIRECTION('',(0.,0.,-1.));
#244 = DIRECTION('',(1.,0.,0.));
#245 = PLANE('',#246);
#246 = AXIS2_PLACEMENT_3D('',#247,#248,#249);
#247 = CARTESIAN_POINT('',(5.,33.25,-21.15));
#248 = DIRECTION('',(0.,-2.2E-16,-1.));
#249 = DIRECTION('',(-1.,0.,0.));
#250 = ADVANCED_FACE('',(#251,#276),#287,.F.);
#251 = FACE_BOUND('',#252,.F.);
#252 = EDGE_LOOP('',(#253,#263,#269,#270));
#253 = ORIENTED_EDGE('',*,*,#254,.T.);
#254 = EDGE_CURVE('',#255,#257,#259,.T.);
#255 = VERTEX_POINT('',#256);
#256 = CARTESIAN_POINT('',(5.,-24.5,-21.15));
#257 = VERTEX_POINT('',#258);
#258 = CARTESIAN_POINT('',(5.,-32.75,-21.15));
#259 = LINE('',#260,#261);
#260 = CARTESIAN_POINT('',(5.,33.25,-21.15));
#261 = VECTOR('',#262,1.);
#262 = DIRECTION('',(0.,-1.,2.2E-16));
#263 = ORIENTED_EDGE('',*,*,#264,.T.);
#264 = EDGE_CURVE('',#257,#72,#265,.T.);
#265 = LINE('',#266,#267);
#266 = CARTESIAN_POINT('',(5.,-32.75,-21.15));
#267 = VECTOR('',#268,1.);
#268 = DIRECTION('',(-1.,-0.,0.));
#269 = ORIENTED_EDGE('',*,*,#71,.F.);
#270 = ORIENTED_EDGE('',*,*,#271,.F.);
#271 = EDGE_CURVE('',#255,#64,#272,.T.);
#272 = LINE('',#273,#274);
#273 = CARTESIAN_POINT('',(70.860336049161,-24.5,-21.15));
#274 = VECTOR('',#275,1.);
#275 = DIRECTION('',(-1.,0.,0.));
#276 = FACE_BOUND('',#277,.F.);
#277 = EDGE_LOOP('',(#278));
#278 = ORIENTED_EDGE('',*,*,#279,.F.);
#279 = EDGE_CURVE('',#280,#280,#282,.T.);
#280 = VERTEX_POINT('',#281);
#281 = CARTESIAN_POINT('',(1.75,-29.25,-21.15));
#282 = CIRCLE('',#283,1.75);
#283 = AXIS2_PLACEMENT_3D('',#284,#285,#286);
#284 = CARTESIAN_POINT('',(0.,-29.25,-21.15));
#285 = DIRECTION('',(0.,0.,-1.));
#286 = DIRECTION('',(1.,0.,0.));
#287 = PLANE('',#288);
#288 = AXIS2_PLACEMENT_3D('',#289,#290,#291);
#289 = CARTESIAN_POINT('',(5.,33.25,-21.15));
#290 = DIRECTION('',(0.,-2.2E-16,-1.));
#291 = DIRECTION('',(-1.,0.,0.));
#292 = ADVANCED_FACE('',(#293),#311,.F.);
#293 = FACE_BOUND('',#294,.F.);
#294 = EDGE_LOOP('',(#295,#303,#309,#310));
#295 = ORIENTED_EDGE('',*,*,#296,.T.);
#296 = EDGE_CURVE('',#215,#297,#299,.T.);
#297 = VERTEX_POINT('',#298);
#298 = CARTESIAN_POINT('',(5.,24.5,-36.15));
#299 = LINE('',#300,#301);
#300 = CARTESIAN_POINT('',(5.,24.5,-38.65));
#301 = VECTOR('',#302,1.);
#302 = DIRECTION('',(0.,0.,-1.));
#303 = ORIENTED_EDGE('',*,*,#304,.T.);
#304 = EDGE_CURVE('',#297,#48,#305,.T.);
#305 = LINE('',#306,#307);
#306 = CARTESIAN_POINT('',(70.860336049161,24.5,-36.15));
#307 = VECTOR('',#308,1.);
#308 = DIRECTION('',(-1.,0.,0.));
#309 = ORIENTED_EDGE('',*,*,#47,.T.);
#310 = ORIENTED_EDGE('',*,*,#222,.F.);
#311 = PLANE('',#312);
#312 = AXIS2_PLACEMENT_3D('',#313,#314,#315);
#313 = CARTESIAN_POINT('',(70.860336049161,24.5,-36.15));
#314 = DIRECTION('',(0.,1.,0.));
#315 = DIRECTION('',(0.,0.,1.));
#316 = ADVANCED_FACE('',(#317),#335,.F.);
#317 = FACE_BOUND('',#318,.F.);
#318 = EDGE_LOOP('',(#319,#327,#328,#329));
#319 = ORIENTED_EDGE('',*,*,#320,.T.);
#320 = EDGE_CURVE('',#321,#255,#323,.T.);
#321 = VERTEX_POINT('',#322);
#322 = CARTESIAN_POINT('',(5.,-24.5,-36.15));
#323 = LINE('',#324,#325);
#324 = CARTESIAN_POINT('',(5.,-24.5,-31.15));
#325 = VECTOR('',#326,1.);
#326 = DIRECTION('',(0.,0.,1.));
#327 = ORIENTED_EDGE('',*,*,#271,.T.);
#328 = ORIENTED_EDGE('',*,*,#63,.T.);
#329 = ORIENTED_EDGE('',*,*,#330,.F.);
#330 = EDGE_CURVE('',#321,#56,#331,.T.);
#331 = LINE('',#332,#333);
#332 = CARTESIAN_POINT('',(70.860336049161,-24.5,-36.15));
#333 = VECTOR('',#334,1.);
#334 = DIRECTION('',(-1.,0.,0.));
#335 = PLANE('',#336);
#336 = AXIS2_PLACEMENT_3D('',#337,#338,#339);
#337 = CARTESIAN_POINT('',(70.860336049161,-24.5,-21.15));
#338 = DIRECTION('',(0.,-1.,0.));
#339 = DIRECTION('',(0.,0.,-1.));
#340 = ADVANCED_FACE('',(#341),#352,.F.);
#341 = FACE_BOUND('',#342,.F.);
#342 = EDGE_LOOP('',(#343,#349,#350,#351));
#343 = ORIENTED_EDGE('',*,*,#344,.T.);
#344 = EDGE_CURVE('',#297,#321,#345,.T.);
#345 = LINE('',#346,#347);
#346 = CARTESIAN_POINT('',(5.,4.375,-36.15));
#347 = VECTOR('',#348,1.);
#348 = DIRECTION('',(0.,-1.,0.));
#349 = ORIENTED_EDGE('',*,*,#330,.T.);
#350 = ORIENTED_EDGE('',*,*,#55,.T.);
#351 = ORIENTED_EDGE('',*,*,#304,.F.);
#352 = PLANE('',#353);
#353 = AXIS2_PLACEMENT_3D('',#354,#355,#356);
#354 = CARTESIAN_POINT('',(70.860336049161,-24.5,-36.15));
#355 = DIRECTION('',(0.,0.,-1.));
#356 = DIRECTION('',(0.,1.,0.));
#357 = ADVANCED_FACE('',(#358),#377,.T.);
#358 = FACE_BOUND('',#359,.F.);
#359 = EDGE_LOOP('',(#360,#361,#362,#371));
#360 = ORIENTED_EDGE('',*,*,#163,.F.);
#361 = ORIENTED_EDGE('',*,*,#110,.T.);
#362 = ORIENTED_EDGE('',*,*,#363,.F.);
#363 = EDGE_CURVE('',#364,#103,#366,.T.);
#364 = VERTEX_POINT('',#365);
#365 = CARTESIAN_POINT('',(4.5,33.25,-40.65));
#366 = ELLIPSE('',#367,0.707106781187,0.5);
#367 = AXIS2_PLACEMENT_3D('',#368,#369,#370);
#368 = CARTESIAN_POINT('',(4.5,32.75,-40.65));
#369 = DIRECTION('',(-0.707106781187,-1.6E-16,-0.707106781187));
#370 = DIRECTION('',(0.707106781187,-1.6E-16,-0.707106781187));
#371 = ORIENTED_EDGE('',*,*,#372,.F.);
#372 = EDGE_CURVE('',#156,#364,#373,.T.);
#373 = LINE('',#374,#375);
#374 = CARTESIAN_POINT('',(-5.,33.25,-40.65));
#375 = VECTOR('',#376,1.);
#376 = DIRECTION('',(1.,0.,0.));
#377 = CYLINDRICAL_SURFACE('',#378,0.5);
#378 = AXIS2_PLACEMENT_3D('',#379,#380,#381);
#379 = CARTESIAN_POINT('',(-5.,32.75,-40.65));
#380 = DIRECTION('',(1.,0.,0.));
#381 = DIRECTION('',(0.,1.,-2.2E-16));
#382 = ADVANCED_FACE('',(#383),#402,.T.);
#383 = FACE_BOUND('',#384,.F.);
#384 = EDGE_LOOP('',(#385,#386,#394,#401));
#385 = ORIENTED_EDGE('',*,*,#196,.T.);
#386 = ORIENTED_EDGE('',*,*,#387,.T.);
#387 = EDGE_CURVE('',#189,#388,#390,.T.);
#388 = VERTEX_POINT('',#389);
#389 = CARTESIAN_POINT('',(4.5,-33.25,-40.65));
#390 = LINE('',#391,#392);
#391 = CARTESIAN_POINT('',(-5.,-33.25,-40.65));
#392 = VECTOR('',#393,1.);
#393 = DIRECTION('',(1.,0.,0.));
#394 = ORIENTED_EDGE('',*,*,#395,.F.);
#395 = EDGE_CURVE('',#95,#388,#396,.T.);
#396 = ELLIPSE('',#397,0.707106781187,0.5);
#397 = AXIS2_PLACEMENT_3D('',#398,#399,#400);
#398 = CARTESIAN_POINT('',(4.5,-32.75,-40.65));
#399 = DIRECTION('',(-0.707106781187,-1.6E-16,-0.707106781187));
#400 = DIRECTION('',(0.707106781187,-1.6E-16,-0.707106781187));
#401 = ORIENTED_EDGE('',*,*,#94,.F.);
#402 = CYLINDRICAL_SURFACE('',#403,0.5);
#403 = AXIS2_PLACEMENT_3D('',#404,#405,#406);
#404 = CARTESIAN_POINT('',(-5.,-32.75,-40.65));
#405 = DIRECTION('',(1.,0.,0.));
#406 = DIRECTION('',(0.,-2.2E-16,-1.));
#407 = ADVANCED_FACE('',(#408),#428,.F.);
#408 = FACE_BOUND('',#409,.F.);
#409 = EDGE_LOOP('',(#410,#411,#417,#418,#424,#425,#426,#427));
#410 = ORIENTED_EDGE('',*,*,#212,.F.);
#411 = ORIENTED_EDGE('',*,*,#412,.F.);
#412 = EDGE_CURVE('',#103,#213,#413,.T.);
#413 = LINE('',#414,#415);
#414 = CARTESIAN_POINT('',(5.,32.75,-41.15));
#415 = VECTOR('',#416,1.);
#416 = DIRECTION('',(0.,2.2E-16,1.));
#417 = ORIENTED_EDGE('',*,*,#102,.T.);
#418 = ORIENTED_EDGE('',*,*,#419,.T.);
#419 = EDGE_CURVE('',#95,#257,#420,.T.);
#420 = LINE('',#421,#422);
#421 = CARTESIAN_POINT('',(5.,-32.75,-41.15));
#422 = VECTOR('',#423,1.);
#423 = DIRECTION('',(0.,2.2E-16,1.));
#424 = ORIENTED_EDGE('',*,*,#254,.F.);
#425 = ORIENTED_EDGE('',*,*,#320,.F.);
#426 = ORIENTED_EDGE('',*,*,#344,.F.);
#427 = ORIENTED_EDGE('',*,*,#296,.F.);
#428 = PLANE('',#429);
#429 = AXIS2_PLACEMENT_3D('',#430,#431,#432);
#430 = CARTESIAN_POINT('',(5.,33.25,-41.15));
#431 = DIRECTION('',(-1.,0.,0.));
#432 = DIRECTION('',(0.,2.2E-16,1.));
#433 = ADVANCED_FACE('',(#434),#453,.F.);
#434 = FACE_BOUND('',#435,.T.);
#435 = EDGE_LOOP('',(#436,#444,#445,#446));
#436 = ORIENTED_EDGE('',*,*,#437,.F.);
#437 = EDGE_CURVE('',#119,#438,#440,.T.);
#438 = VERTEX_POINT('',#439);
#439 = CARTESIAN_POINT('',(-3.5,-29.25,-40.15));
#440 = LINE('',#441,#442);
#441 = CARTESIAN_POINT('',(-3.5,-29.25,-41.15));
#442 = VECTOR('',#443,1.);
#443 = DIRECTION('',(0.,0.,1.));
#444 = ORIENTED_EDGE('',*,*,#118,.T.);
#445 = ORIENTED_EDGE('',*,*,#437,.T.);
#446 = ORIENTED_EDGE('',*,*,#447,.F.);
#447 = EDGE_CURVE('',#438,#438,#448,.T.);
#448 = CIRCLE('',#449,3.5);
#449 = AXIS2_PLACEMENT_3D('',#450,#451,#452);
#450 = CARTESIAN_POINT('',(0.,-29.25,-40.15));
#451 = DIRECTION('',(0.,0.,-1.));
#452 = DIRECTION('',(-1.,0.,0.));
#453 = CYLINDRICAL_SURFACE('',#454,3.5);
#454 = AXIS2_PLACEMENT_3D('',#455,#456,#457);
#455 = CARTESIAN_POINT('',(0.,-29.25,-41.15));
#456 = DIRECTION('',(0.,0.,1.));
#457 = DIRECTION('',(-1.,0.,0.));
#458 = ADVANCED_FACE('',(#459),#478,.F.);
#459 = FACE_BOUND('',#460,.T.);
#460 = EDGE_LOOP('',(#461,#469,#470,#471));
#461 = ORIENTED_EDGE('',*,*,#462,.F.);
#462 = EDGE_CURVE('',#130,#463,#465,.T.);
#463 = VERTEX_POINT('',#464);
#464 = CARTESIAN_POINT('',(-3.5,29.25,-40.15));
#465 = LINE('',#466,#467);
#466 = CARTESIAN_POINT('',(-3.5,29.25,-41.15));
#467 = VECTOR('',#468,1.);
#468 = DIRECTION('',(0.,0.,1.));
#469 = ORIENTED_EDGE('',*,*,#129,.T.);
#470 = ORIENTED_EDGE('',*,*,#462,.T.);
#471 = ORIENTED_EDGE('',*,*,#472,.F.);
#472 = EDGE_CURVE('',#463,#463,#473,.T.);
#473 = CIRCLE('',#474,3.5);
#474 = AXIS2_PLACEMENT_3D('',#475,#476,#477);
#475 = CARTESIAN_POINT('',(0.,29.25,-40.15));
#476 = DIRECTION('',(0.,0.,-1.));
#477 = DIRECTION('',(-1.,0.,0.));
#478 = CYLINDRICAL_SURFACE('',#479,3.5);
#479 = AXIS2_PLACEMENT_3D('',#480,#481,#482);
#480 = CARTESIAN_POINT('',(0.,29.25,-41.15));
#481 = DIRECTION('',(0.,0.,1.));
#482 = DIRECTION('',(-1.,0.,0.));
#483 = ADVANCED_FACE('',(#484),#503,.T.);
#484 = FACE_BOUND('',#485,.F.);
#485 = EDGE_LOOP('',(#486,#495,#496,#497));
#486 = ORIENTED_EDGE('',*,*,#487,.T.);
#487 = EDGE_CURVE('',#488,#213,#490,.T.);
#488 = VERTEX_POINT('',#489);
#489 = CARTESIAN_POINT('',(4.5,33.25,-21.65));
#490 = ELLIPSE('',#491,0.707106781187,0.5);
#491 = AXIS2_PLACEMENT_3D('',#492,#493,#494);
#492 = CARTESIAN_POINT('',(4.5,32.75,-21.65));
#493 = DIRECTION('',(0.707106781187,-1.6E-16,-0.707106781187));
#494 = DIRECTION('',(0.707106781187,1.6E-16,0.707106781187));
#495 = ORIENTED_EDGE('',*,*,#229,.T.);
#496 = ORIENTED_EDGE('',*,*,#146,.T.);
#497 = ORIENTED_EDGE('',*,*,#498,.F.);
#498 = EDGE_CURVE('',#488,#147,#499,.T.);
#499 = LINE('',#500,#501);
#500 = CARTESIAN_POINT('',(5.,33.25,-21.65));
#501 = VECTOR('',#502,1.);
#502 = DIRECTION('',(-1.,-0.,0.));
#503 = CYLINDRICAL_SURFACE('',#504,0.5);
#504 = AXIS2_PLACEMENT_3D('',#505,#506,#507);
#505 = CARTESIAN_POINT('',(5.,32.75,-21.65));
#506 = DIRECTION('',(-1.,-0.,0.));
#507 = DIRECTION('',(-0.,1.,-2.2E-16));
#508 = ADVANCED_FACE('',(#509),#520,.T.);
#509 = FACE_BOUND('',#510,.T.);
#510 = EDGE_LOOP('',(#511,#512,#513,#519));
#511 = ORIENTED_EDGE('',*,*,#155,.F.);
#512 = ORIENTED_EDGE('',*,*,#498,.F.);
#513 = ORIENTED_EDGE('',*,*,#514,.F.);
#514 = EDGE_CURVE('',#364,#488,#515,.T.);
#515 = LINE('',#516,#517);
#516 = CARTESIAN_POINT('',(4.5,33.25,-41.15));
#517 = VECTOR('',#518,1.);
#518 = DIRECTION('',(0.,2.2E-16,1.));
#519 = ORIENTED_EDGE('',*,*,#372,.F.);
#520 = PLANE('',#521);
#521 = AXIS2_PLACEMENT_3D('',#522,#523,#524);
#522 = CARTESIAN_POINT('',(0.,33.25,-31.15));
#523 = DIRECTION('',(0.,1.,0.));
#524 = DIRECTION('',(0.,0.,1.));
#525 = ADVANCED_FACE('',(#526),#545,.T.);
#526 = FACE_BOUND('',#527,.T.);
#527 = EDGE_LOOP('',(#528,#537,#538,#539));
#528 = ORIENTED_EDGE('',*,*,#529,.T.);
#529 = EDGE_CURVE('',#530,#257,#532,.T.);
#530 = VERTEX_POINT('',#531);
#531 = CARTESIAN_POINT('',(4.5,-33.25,-21.65));
#532 = ELLIPSE('',#533,0.707106781187,0.5);
#533 = AXIS2_PLACEMENT_3D('',#534,#535,#536);
#534 = CARTESIAN_POINT('',(4.5,-32.75,-21.65));
#535 = DIRECTION('',(-0.707106781187,1.6E-16,0.707106781187));
#536 = DIRECTION('',(0.707106781187,1.6E-16,0.707106781187));
#537 = ORIENTED_EDGE('',*,*,#264,.T.);
#538 = ORIENTED_EDGE('',*,*,#179,.T.);
#539 = ORIENTED_EDGE('',*,*,#540,.F.);
#540 = EDGE_CURVE('',#530,#180,#541,.T.);
#541 = LINE('',#542,#543);
#542 = CARTESIAN_POINT('',(5.,-33.25,-21.65));
#543 = VECTOR('',#544,1.);
#544 = DIRECTION('',(-1.,-0.,0.));
#545 = CYLINDRICAL_SURFACE('',#546,0.5);
#546 = AXIS2_PLACEMENT_3D('',#547,#548,#549);
#547 = CARTESIAN_POINT('',(5.,-32.75,-21.65));
#548 = DIRECTION('',(-1.,-0.,0.));
#549 = DIRECTION('',(0.,-1.,2.2E-16));
#550 = ADVANCED_FACE('',(#551),#562,.F.);
#551 = FACE_BOUND('',#552,.F.);
#552 = EDGE_LOOP('',(#553,#554,#555,#561));
#553 = ORIENTED_EDGE('',*,*,#188,.F.);
#554 = ORIENTED_EDGE('',*,*,#540,.F.);
#555 = ORIENTED_EDGE('',*,*,#556,.F.);
#556 = EDGE_CURVE('',#388,#530,#557,.T.);
#557 = LINE('',#558,#559);
#558 = CARTESIAN_POINT('',(4.5,-33.25,-41.15));
#559 = VECTOR('',#560,1.);
#560 = DIRECTION('',(0.,2.2E-16,1.));
#561 = ORIENTED_EDGE('',*,*,#387,.F.);
#562 = PLANE('',#563);
#563 = AXIS2_PLACEMENT_3D('',#564,#565,#566);
#564 = CARTESIAN_POINT('',(0.,-33.25,-31.15));
#565 = DIRECTION('',(0.,1.,0.));
#566 = DIRECTION('',(0.,0.,1.));
#567 = ADVANCED_FACE('',(#568),#587,.F.);
#568 = FACE_BOUND('',#569,.T.);
#569 = EDGE_LOOP('',(#570,#579,#585,#586));
#570 = ORIENTED_EDGE('',*,*,#571,.T.);
#571 = EDGE_CURVE('',#572,#572,#574,.T.);
#572 = VERTEX_POINT('',#573);
#573 = CARTESIAN_POINT('',(1.75,29.25,-40.15));
#574 = CIRCLE('',#575,1.75);
#575 = AXIS2_PLACEMENT_3D('',#576,#577,#578);
#576 = CARTESIAN_POINT('',(0.,29.25,-40.15));
#577 = DIRECTION('',(0.,0.,-1.));
#578 = DIRECTION('',(1.,0.,0.));
#579 = ORIENTED_EDGE('',*,*,#580,.T.);
#580 = EDGE_CURVE('',#572,#238,#581,.T.);
#581 = LINE('',#582,#583);
#582 = CARTESIAN_POINT('',(1.75,29.25,-41.15));
#583 = VECTOR('',#584,1.);
#584 = DIRECTION('',(0.,0.,1.));
#585 = ORIENTED_EDGE('',*,*,#237,.F.);
#586 = ORIENTED_EDGE('',*,*,#580,.F.);
#587 = CYLINDRICAL_SURFACE('',#588,1.75);
#588 = AXIS2_PLACEMENT_3D('',#589,#590,#591);
#589 = CARTESIAN_POINT('',(0.,29.25,-41.15));
#590 = DIRECTION('',(0.,0.,-1.));
#591 = DIRECTION('',(1.,0.,0.));
#592 = ADVANCED_FACE('',(#593),#612,.F.);
#593 = FACE_BOUND('',#594,.T.);
#594 = EDGE_LOOP('',(#595,#604,#610,#611));
#595 = ORIENTED_EDGE('',*,*,#596,.T.);
#596 = EDGE_CURVE('',#597,#597,#599,.T.);
#597 = VERTEX_POINT('',#598);
#598 = CARTESIAN_POINT('',(1.75,-29.25,-40.15));
#599 = CIRCLE('',#600,1.75);
#600 = AXIS2_PLACEMENT_3D('',#601,#602,#603);
#601 = CARTESIAN_POINT('',(0.,-29.25,-40.15));
#602 = DIRECTION('',(0.,0.,-1.));
#603 = DIRECTION('',(1.,0.,0.));
#604 = ORIENTED_EDGE('',*,*,#605,.T.);
#605 = EDGE_CURVE('',#597,#280,#606,.T.);
#606 = LINE('',#607,#608);
#607 = CARTESIAN_POINT('',(1.75,-29.25,-41.15));
#608 = VECTOR('',#609,1.);
#609 = DIRECTION('',(0.,0.,1.));
#610 = ORIENTED_EDGE('',*,*,#279,.F.);
#611 = ORIENTED_EDGE('',*,*,#605,.F.);
#612 = CYLINDRICAL_SURFACE('',#613,1.75);
#613 = AXIS2_PLACEMENT_3D('',#614,#615,#616);
#614 = CARTESIAN_POINT('',(0.,-29.25,-41.15));
#615 = DIRECTION('',(0.,0.,-1.));
#616 = DIRECTION('',(1.,0.,0.));
#617 = ADVANCED_FACE('',(#618),#624,.T.);
#618 = FACE_BOUND('',#619,.F.);
#619 = EDGE_LOOP('',(#620,#621,#622,#623));
#620 = ORIENTED_EDGE('',*,*,#363,.T.);
#621 = ORIENTED_EDGE('',*,*,#412,.T.);
#622 = ORIENTED_EDGE('',*,*,#487,.F.);
#623 = ORIENTED_EDGE('',*,*,#514,.F.);
#624 = CYLINDRICAL_SURFACE('',#625,0.5);
#625 = AXIS2_PLACEMENT_3D('',#626,#627,#628);
#626 = CARTESIAN_POINT('',(4.5,32.75,-41.15));
#627 = DIRECTION('',(0.,2.2E-16,1.));
#628 = DIRECTION('',(0.,1.,-2.2E-16));
#629 = ADVANCED_FACE('',(#630),#636,.T.);
#630 = FACE_BOUND('',#631,.T.);
#631 = EDGE_LOOP('',(#632,#633,#634,#635));
#632 = ORIENTED_EDGE('',*,*,#395,.F.);
#633 = ORIENTED_EDGE('',*,*,#419,.T.);
#634 = ORIENTED_EDGE('',*,*,#529,.F.);
#635 = ORIENTED_EDGE('',*,*,#556,.F.);
#636 = CYLINDRICAL_SURFACE('',#637,0.5);
#637 = AXIS2_PLACEMENT_3D('',#638,#639,#640);
#638 = CARTESIAN_POINT('',(4.5,-32.75,-41.15));
#639 = DIRECTION('',(0.,2.2E-16,1.));
#640 = DIRECTION('',(0.,-1.,2.2E-16));
#641 = ADVANCED_FACE('',(#642,#645),#648,.T.);
#642 = FACE_BOUND('',#643,.T.);
#643 = EDGE_LOOP('',(#644));
#644 = ORIENTED_EDGE('',*,*,#447,.T.);
#645 = FACE_BOUND('',#646,.T.);
#646 = EDGE_LOOP('',(#647));
#647 = ORIENTED_EDGE('',*,*,#596,.F.);
#648 = PLANE('',#649);
#649 = AXIS2_PLACEMENT_3D('',#650,#651,#652);
#650 = CARTESIAN_POINT('',(0.,-29.25,-40.15));
#651 = DIRECTION('',(0.,0.,-1.));
#652 = DIRECTION('',(-1.,0.,0.));
#653 = ADVANCED_FACE('',(#654,#657),#660,.T.);
#654 = FACE_BOUND('',#655,.T.);
#655 = EDGE_LOOP('',(#656));
#656 = ORIENTED_EDGE('',*,*,#472,.T.);
#657 = FACE_BOUND('',#658,.T.);
#658 = EDGE_LOOP('',(#659));
#659 = ORIENTED_EDGE('',*,*,#571,.F.);
#660 = PLANE('',#661);
#661 = AXIS2_PLACEMENT_3D('',#662,#663,#664);
#662 = CARTESIAN_POINT('',(0.,29.25,-40.15));
#663 = DIRECTION('',(0.,0.,-1.));
#664 = DIRECTION('',(-1.,0.,0.));
#665 = ( GEOMETRIC_REPRESENTATION_CONTEXT(3) 
GLOBAL_UNCERTAINTY_ASSIGNED_CONTEXT((#669)) GLOBAL_UNIT_ASSIGNED_CONTEXT
((#666,#667,#668)) REPRESENTATION_CONTEXT('Context #1',
  '3D Context with UNIT and UNCERTAINTY') );
#666 = ( LENGTH_UNIT() NAMED_UNIT(*) SI_UNIT(.MILLI.,.METRE.) );
#667 = ( NAMED_UNIT(*) PLANE_ANGLE_UNIT() SI_UNIT($,.RADIAN.) );
#668 = ( NAMED_UNIT(*) SI_UNIT($,.STERADIAN.) SOLID_ANGLE_UNIT() );
#669 = UNCERTAINTY_MEASURE_WITH_UNIT(LENGTH_MEASURE(2.E-05),#666,
  'distance_accuracy_value','confusion accuracy');
#670 = PRODUCT_RELATED_PRODUCT_CATEGORY('part',$,(#7));
#671 = MECHANICAL_DESIGN_GEOMETRIC_PRESENTATION_REPRESENTATION('',(#672)
  ,#665);
#672 = STYLED_ITEM('color',(#673),#15);
#673 = PRESENTATION_STYLE_ASSIGNMENT((#674,#680));
#674 = SURFACE_STYLE_USAGE(.BOTH.,#675);
#675 = SURFACE_SIDE_STYLE('',(#676));
#676 = SURFACE_STYLE_FILL_AREA(#677);
#677 = FILL_AREA_STYLE('',(#678));
#678 = FILL_AREA_STYLE_COLOUR('',#679);
#679 = COLOUR_RGB('',0.800000010877,0.800000010877,0.901960800373);
#680 = CURVE_STYLE('',#681,POSITIVE_LENGTH_MEASURE(0.1),#682);
#681 = DRAUGHTING_PRE_DEFINED_CURVE_FONT('continuous');
#682 = COLOUR_RGB('',9.803921802644E-02,9.803921802644E-02,
  9.803921802644E-02);
ENDSEC;
END-ISO-10303-21;
